豆芽菜舖音樂論壇

--- 最快樂的音樂交流站 ---
現在的時間是 2014-09-19, 19:47

所有顯示的時間為 UTC + 8 小時




發表新文章 回覆主題  [ 15 篇文章 ]  前往頁數 12  下一頁
發表人 內容
未閱讀文章發表於 : 2009-05-25, 22:14 
離線
剛發芽的豆子
剛發芽的豆子

註冊時間: 2009-04-01, 17:41
文章: 187

http://www.youtube.com/watch?v=S4f5f5z3CDM
(跟烏龍派出所有關係的XD)


回頂端
 個人資料  
 
未閱讀文章發表於 : 2009-05-25, 22:34 
離線
豆芽菜之神
豆芽菜之神
頭像

註冊時間: 2007-05-30, 04:15
文章: 4536
來自: 內華達摸哈米沙漠
這是有名的 "鑽石頭"( diamond head) & ”管路“ (Pineline) 合併曲。

閃大的沖浪教學中有這2條﹐先去看看﹐用耳朵眼睛學快一點:

"鑽石頭"
Intro
PM (scratch lower strings)
e-----------------------------------||------------------|
b----------------------------------.||.----------------.|
g-----------------------------------||------------------|
d----------------------------------.||.-------0-2-0----.|
a-----------------------------------||--0--3--------3---|
e-0-0-0-0-3-3-3-3-0-0-0-0-3-3-3-3---||------------------|

_________
Head |1. |
e--------------------------------5-----7-----8-----7-------5------|
b----------------------------------5-----5-----5-----5-------5---.|
g--------5-----4----4-h5-p4----------5-----5-----5-----5-------5--|
d--7--7----7---5------------5--7---------------------------------.|
a-----------------------------------------------------------------|
e-----------------------------------------------------------------|

________________
|2.PM
e-----------------------------------------------------------------|
b-----------------------------------------------------------------|
g----5--6--7--7-p5---5--7--7-p5---5--7--7-p5---5--7--7-p5---------|
d--7---------------7------------7------------7------------7-------|
a-----------------------------------------------------------------|
e-----------------------------------------------------------------|

PM
e----------------------------------------------------------------------------------|
b--10--8---------------------------------------------------------------------------|
g--------\7--5-------------------7--7-p5---5--7--7-p5---5--7--7-p5---5--7--7-p5----|
d---------------7--5---------------------7------------7------------7------------7--|
a---------------------\5--3--------------------------------------------------------|
e----------------------------------------------------------------------------------|

*Start at high fret pick 16th notes and slide down
e--------------------------------------------------------------------|
b--------------------------------------------------------------------|
g--9--7--------------------------------------------------------------|
d-------\7--5--------------------------------------------------------|
a--------------------------------------------------------------------|
e-----------------*-\-\-\-\-\-\-\-\-\-\-\-\-\-\-\-\------------------|


Dm Fm Dm Fm
e-----------------------------------------------------------------|
b--6----9----6----9----10--8--------------------------------------|
g--7----10---7----10---------\7--5--------------------------------|
d--7----10---7----10----------------7--5--------------------------|
a--5----8----5----8-----------------------\5--3-------------------|
e-----------------------------------------------------------------|


Dm Fm Dm Fm
e----------------------------------------------------------------|
b--6----9----6----9----------------------------------------------|
g--7----10---7----10---------------------------------------------|
d--7----10---7----10-----9-9-9-9-9-9-9-9-9-9-9-9-9-9-9-9---------|
a--5----8----5----8------7-7-7-7-7-7-7-7-7-7-7-7-7-7-7-7---------|
e----------------------------------------------------------------|

Pipeline:

Intro: repeat
for 4 bars
Em Am

E ||-----------|----------|----------------------------------------------------------------------------|
B ||-----------|----------|----------------------------------------------------------------------------|
G ||-----------|----------|----------------------------half bend---------------------------half bend-|
D |-----------|----------|---------------------------------------0--0-2-0-0---2-0-2-0--0-----------|
A ||-----------|-2--2-----|----0--0-2-0-0---2-0-2-0--0------------0-3--3-----3------------3-3^-0-------|
E ||-15\-slide-|0--3---- -|-0-3--3-----3------------3-3^-0---------------------------------------------|


B C B Back to Intro & Repeat

E ||-----------------------------------------------------------------|
B ||-----------------------------------------------------------------|
G ||-4--4-4--4-4-4---5--5-5--5-5-5---4--4-4--4-4-4-------------------|
D ||-4--4-4--4-4-4---5--5-5--5-5-5---4--4-4--4-4-4-------------------|
A ||-2--2-2--2-2-2---3--3-3--3-3-3---2--2-2--2-2-2--2-2-0-0----------|
E ||-------------------------------------------------------3-3-2-2---|


Bridge:

Am G F G
*2nd time go here
E ||-------------------------------------------------------------|----------------------|
B ||-------------------------------------------------------------|----------------------|
G ||-------------------------------------------------------------|----------------------|
D ||-------------0-2-2-0--------------0-0------------------------|-----------0-0--------|
A ||-3^-0-0--0-3---------3-2-------2-3---3-2-0-------0-2-3-3-2-0-|2-------2-3----3-2----|REPEAT BRIDGE
E ||-------------------------3-3--3------------1-1--1------------|--3-3--3--------------|


B

* (2nd time) Back to Intro & Repeat
E ||---------------------------------|
B ||---------------------------------|
G ||-4--4-4--4-4-4-------------------|
D ||-4--4-4--4-4-4-------------------|
A ||-2--2-2--2-2-2--2-2-0-0----------|
E ||------------------------3-3-2-2--|

_________________
圖檔

返老還童 青春洋溢
童心未泯 自得其樂

布落格:
沙漠衝浪者文摘
http://vegasdesertsurfer.blogspot.com/
沙漠叔吉他網頁
http://uncledesertguitars.blogspot.com/


回頂端
 個人資料  
 
未閱讀文章發表於 : 2009-05-26, 00:54 
離線
剛發芽的豆子
剛發芽的豆子

註冊時間: 2009-04-01, 17:41
文章: 187
水喔
漠叔都那麼熱心了
我也趕快找個時間把他練起來加入衝浪的行列才是!
多謝漠叔啦


回頂端
 個人資料  
 
未閱讀文章發表於 : 2009-05-27, 22:58 
離線
往上伸展的豆子
往上伸展的豆子
頭像

註冊時間: 2008-09-27, 18:31
文章: 575
iloveyou 寫:
http://www.youtube.com/watch?v=S4f5f5z3CDM
(跟烏龍派出所有關係的XD)


iloveyou兄
我有鑽石頭和管路的GP譜
但我沒辦法在菜鋪上上傳檔案
如果有需要的話
留下您的E-MAIL
我寄給您
有需要的話..我還有其他投機者衝浪曲的GP譜..可以一併寄給您...

_________________
http://www.youtube.com/user/shiuanyo?feature=mhsn
http://blog.yam.com/shiuanyo1969
http://tw.myblog.yahoo.com/shiuanyo/


回頂端
 個人資料  
 
未閱讀文章發表於 : 2009-05-28, 14:22 
離線
剛發芽的豆子
剛發芽的豆子

註冊時間: 2009-04-01, 17:41
文章: 187
綠茶兄您真是太好心了
溫暖溫暖溫暖
真是深深感受到你的父愛阿
我留下我的信箱
希望可以都把他練完
謝謝您
sugizoelaine@yahoo.com (L)


回頂端
 個人資料  
 
未閱讀文章發表於 : 2009-05-28, 15:17 
離線
往上伸展的豆子
往上伸展的豆子
頭像

註冊時間: 2008-09-27, 18:31
文章: 575
已寄出..請有空確認一下...大概有10首投機者的曲子吧..好像有漏寄吧..
因為有些曲名是英文我看不懂..我的英文程度很差 (ku17) .
最近電郵常被退件...沒收到的話我再寄一次...
上次寄背景音樂給琴友..也是一直寄不出去..老是被退件..琴友不曉得會不會認為我在唬弄他 (ku6)
背景音樂小的極力推薦閃大的背景音樂 (Y) (Y) (Y)
用了閃大的背景音樂就有如虎添翼之妙效 (Y)

_________________
http://www.youtube.com/user/shiuanyo?feature=mhsn
http://blog.yam.com/shiuanyo1969
http://tw.myblog.yahoo.com/shiuanyo/


回頂端
 個人資料  
 
未閱讀文章發表於 : 2009-05-28, 15:25 
離線
往上伸展的豆子
往上伸展的豆子
頭像

註冊時間: 2008-09-27, 18:31
文章: 575
又被退件了...
iloveyou兄
我的信箱如下
即時通 shiuanyo@yahoo.com.tw
msn: Shiuanyo01@hotmail.com
如果你我都在線上的話....我直接傳檔給你
傳不出去誓不為人 (ku11) (ku11) (ku11)

_________________
http://www.youtube.com/user/shiuanyo?feature=mhsn
http://blog.yam.com/shiuanyo1969
http://tw.myblog.yahoo.com/shiuanyo/


回頂端
 個人資料  
 
未閱讀文章發表於 : 2009-05-28, 16:36 
離線
剛發芽的豆子
剛發芽的豆子

註冊時間: 2009-04-01, 17:41
文章: 187
HI綠茶哥我加你囉
這幾天我可能沒法上要上課
還是禮拜一的下午或早上呢??
還是你要上班??
沒關係我就掛著好啦
多謝你好意阿
不練真的對不起你阿
你已經成功的把我拉近SURF的世界啦哈哈


回頂端
 個人資料  
 
未閱讀文章發表於 : 2009-05-29, 16:06 
離線
往上伸展的豆子
往上伸展的豆子
頭像

註冊時間: 2008-09-27, 18:31
文章: 575
iloveyou兄
先到這兒慢慢下載吧....投機者的名曲大都在這兒...
http://www.ultimate-guitar.com/tabs/ventures_tabs.htm
把吉他的聲音歸零就成了現成的背景音樂
但我還是很用力的推薦閃爺的背景音樂..那才是會讓人熱寫沸騰...

gp檔的管路在這裡..上面的網址就沒有
http://www.ultimate-guitar.com/tabs/c/c ... ar_pro.htm

再來是鑽石頭
http://www.ultimate-guitar.com/tabs/v/v ... ar_pro.htm
找檔案是 GP譜的

投機者其他的GP譜有機會再傳給你
我一上傳到網路空間就當機...氣死我了...

_________________
http://www.youtube.com/user/shiuanyo?feature=mhsn
http://blog.yam.com/shiuanyo1969
http://tw.myblog.yahoo.com/shiuanyo/


回頂端
 個人資料  
 
未閱讀文章發表於 : 2009-06-01, 14:33 
離線
剛發芽的豆子
剛發芽的豆子

註冊時間: 2009-04-01, 17:41
文章: 187
OKOK謝你啦
我已經下載完了
我趕緊抓時間練
多謝啦


回頂端
 個人資料  
 
顯示文章 :  排序  
發表新文章 回覆主題  [ 15 篇文章 ]  前往頁數 12  下一頁

所有顯示的時間為 UTC + 8 小時


誰在線上

正在瀏覽這個版面的使用者:沒有註冊會員 和 7 位訪客


不能 在這個版面發表主題
不能 在這個版面回覆主題
不能 在這個版面編輯您的文章
不能 在這個版面刪除您的文章
不能 在這個版面上傳附加檔案

搜尋:
前往 :  
POWERED_BY
正體中文語系由 竹貓星球 維護製作